viernes, 11 de febrero de 2011

Huaquero (marinera norteña) - Acordes, tablatura y tutorial en video

(Ritmo de marinera)

Intro
---7--7-7-7-7-7-7--10--7-10--7--10--7---7--7--7--7--5----
---8---------------------------------------8--8-----5----
---9---------------------------------------9-------------
---------------------------------------------------------
---------------------------------------------------------
---------------------------------------------------------

2v
-----0-----0----0-----------------
-------------------------0-----0--
----------------------------------
----------------------------------
-------------------0--2-----2-----
--0-----2-----3-------------------

Tema
Em                  G          B             Em
Yo soy el huaquero viejo, que vengo de sacar huacos (bis)
C                  G      B             Em
De la huaca más arriba, de la huaca más abajo (bis)

Em              G        B          Em
Yo tenía una cholita que se llamaba Jacoba (bis)
C               G      B         Em
Y todititas las noches sonaba la barbacoba (bis)

C              G       B                  Em
Huaquero huaquero, huaquero vamos a huaquear (bis)
  G                                 B    Em
Coba, coba al amanecer, coba, coba coba al anochecer. (bis)

(Repetir Intro y Tema)

video

Estuve buscando los acordes de la marinera Huaquero y como no los encontré cuelgo mi propia versión para aquel que quiera tocar esta marinera. Espero les guste.

Revisar también mi blog Acordes en Rojo y Blanco, acordes, ritmos y más transcripciones.

He puesto también un pequeño tutorial del Intro en video (hay un errorcito por ahí, pero se entiende la idea).